ISO-10303-21;
HEADER;
/* Generated by software containing ST-Developer
 * from STEP Tools, Inc. (www.steptools.com) 
 */

FILE_DESCRIPTION(
/* description */ (''),
/* implementation_level */ '2;1');

FILE_NAME(
/* name */ 
'J:\\Michael\\3D tekeningen\\Standaarddempers\\Lsad\\LSAD 01 G.stp',
/* time_stamp */ '2014-10-17T15:03:23+02:00',
/* author */ ('Tekenkamer'),
/* organization */ (''),
/* preprocessor_version */ 'ST-DEVELOPER v15.6',
/* originating_system */ 'Autodesk Inventor 2015',
/* authorisation */ '');

FILE_SCHEMA (('AUTOMOTIVE_DESIGN { 1 0 10303 214 3 1 1 }'));
ENDSEC;

DATA;
#10=MECHANICAL_DESIGN_GEOMETRIC_PRESENTATION_REPRESENTATION('',(#39,#41,
#40),#371);
#11=ITEM_DEFINED_TRANSFORMATION($,$,#200,#232);
#12=ITEM_DEFINED_TRANSFORMATION($,$,#200,#233);
#13=ITEM_DEFINED_TRANSFORMATION($,$,#209,#234);
#14=ITEM_DEFINED_TRANSFORMATION($,$,#218,#235);
#15=ITEM_DEFINED_TRANSFORMATION($,$,#218,#236);
#16=(
REPRESENTATION_RELATIONSHIP($,$,#391,#394)
REPRESENTATION_RELATIONSHIP_WITH_TRANSFORMATION(#11)
SHAPE_REPRESENTATION_RELATIONSHIP()
);
#17=(
REPRESENTATION_RELATIONSHIP($,$,#391,#394)
REPRESENTATION_RELATIONSHIP_WITH_TRANSFORMATION(#12)
SHAPE_REPRESENTATION_RELATIONSHIP()
);
#18=(
REPRESENTATION_RELATIONSHIP($,$,#392,#394)
REPRESENTATION_RELATIONSHIP_WITH_TRANSFORMATION(#13)
SHAPE_REPRESENTATION_RELATIONSHIP()
);
#19=(
REPRESENTATION_RELATIONSHIP($,$,#393,#394)
REPRESENTATION_RELATIONSHIP_WITH_TRANSFORMATION(#14)
SHAPE_REPRESENTATION_RELATIONSHIP()
);
#20=(
REPRESENTATION_RELATIONSHIP($,$,#393,#394)
REPRESENTATION_RELATIONSHIP_WITH_TRANSFORMATION(#15)
SHAPE_REPRESENTATION_RELATIONSHIP()
);
#21=CONTEXT_DEPENDENT_SHAPE_REPRESENTATION(#16,#386);
#22=CONTEXT_DEPENDENT_SHAPE_REPRESENTATION(#17,#387);
#23=CONTEXT_DEPENDENT_SHAPE_REPRESENTATION(#18,#388);
#24=CONTEXT_DEPENDENT_SHAPE_REPRESENTATION(#19,#389);
#25=CONTEXT_DEPENDENT_SHAPE_REPRESENTATION(#20,#390);
#26=NEXT_ASSEMBLY_USAGE_OCCURRENCE('Part16:1','Part16:1','Part16:1',#399,
#396,'Part16:1');
#27=NEXT_ASSEMBLY_USAGE_OCCURRENCE('Part16:2','Part16:2','Part16:2',#399,
#396,'Part16:2');
#28=NEXT_ASSEMBLY_USAGE_OCCURRENCE('Part17:1','Part17:1','Part17:1',#399,
#397,'Part17:1');
#29=NEXT_ASSEMBLY_USAGE_OCCURRENCE('JIS B 2302 Long Nipple 1 x 65:1',
'JIS B 2302 Long Nipple 1 x 65:1','JIS B 2302 Long Nipple 1 x 65:1',#399,
#398,'JIS B 2302 Long Nipple 1 x 65:1');
#30=NEXT_ASSEMBLY_USAGE_OCCURRENCE('JIS B 2302 Long Nipple 1 x 65:2',
'JIS B 2302 Long Nipple 1 x 65:2','JIS B 2302 Long Nipple 1 x 65:2',#399,
#398,'JIS B 2302 Long Nipple 1 x 65:2');
#31=CONICAL_SURFACE('',#224,16.56215625,1.78991060824607);
#32=CONICAL_SURFACE('',#228,16.56215625,1.78991060824607);
#33=SHAPE_REPRESENTATION_RELATIONSHIP('SRR','None',#391,#36);
#34=SHAPE_REPRESENTATION_RELATIONSHIP('SRR','None',#392,#37);
#35=SHAPE_REPRESENTATION_RELATIONSHIP('SRR','None',#393,#38);
#36=ADVANCED_BREP_SHAPE_REPRESENTATION($,(#42),#367);
#37=ADVANCED_BREP_SHAPE_REPRESENTATION($,(#43),#368);
#38=ADVANCED_BREP_SHAPE_REPRESENTATION($,(#44),#369);
#39=STYLED_ITEM('',(#416),#42);
#40=STYLED_ITEM('',(#416),#43);
#41=STYLED_ITEM('',(#417),#44);
#42=MANIFOLD_SOLID_BREP('Solid1',#197);
#43=MANIFOLD_SOLID_BREP('Solid1',#198);
#44=MANIFOLD_SOLID_BREP('Solid1',#199);
#45=PLANE('',#207);
#46=PLANE('',#208);
#47=PLANE('',#216);
#48=PLANE('',#217);
#49=PLANE('',#222);
#50=PLANE('',#230);
#51=FACE_BOUND('',#80,.T.);
#52=FACE_BOUND('',#82,.T.);
#53=FACE_BOUND('',#84,.T.);
#54=FACE_BOUND('',#86,.T.);
#55=FACE_BOUND('',#88,.T.);
#56=FACE_BOUND('',#90,.T.);
#57=FACE_BOUND('',#92,.T.);
#58=FACE_BOUND('',#94,.T.);
#59=FACE_BOUND('',#96,.T.);
#60=FACE_BOUND('',#98,.T.);
#61=FACE_BOUND('',#100,.T.);
#62=FACE_BOUND('',#102,.T.);
#63=FACE_BOUND('',#104,.T.);
#64=FACE_BOUND('',#106,.T.);
#65=FACE_OUTER_BOUND('',#79,.T.);
#66=FACE_OUTER_BOUND('',#81,.T.);
#67=FACE_OUTER_BOUND('',#83,.T.);
#68=FACE_OUTER_BOUND('',#85,.T.);
#69=FACE_OUTER_BOUND('',#87,.T.);
#70=FACE_OUTER_BOUND('',#89,.T.);
#71=FACE_OUTER_BOUND('',#91,.T.);
#72=FACE_OUTER_BOUND('',#93,.T.);
#73=FACE_OUTER_BOUND('',#95,.T.);
#74=FACE_OUTER_BOUND('',#97,.T.);
#75=FACE_OUTER_BOUND('',#99,.T.);
#76=FACE_OUTER_BOUND('',#101,.T.);
#77=FACE_OUTER_BOUND('',#103,.T.);
#78=FACE_OUTER_BOUND('',#105,.T.);
#79=EDGE_LOOP('',(#149));
#80=EDGE_LOOP('',(#150));
#81=EDGE_LOOP('',(#151));
#82=EDGE_LOOP('',(#152));
#83=EDGE_LOOP('',(#153));
#84=EDGE_LOOP('',(#154));
#85=EDGE_LOOP('',(#155));
#86=EDGE_LOOP('',(#156));
#87=EDGE_LOOP('',(#157));
#88=EDGE_LOOP('',(#158));
#89=EDGE_LOOP('',(#159));
#90=EDGE_LOOP('',(#160));
#91=EDGE_LOOP('',(#161));
#92=EDGE_LOOP('',(#162));
#93=EDGE_LOOP('',(#163));
#94=EDGE_LOOP('',(#164));
#95=EDGE_LOOP('',(#165));
#96=EDGE_LOOP('',(#166));
#97=EDGE_LOOP('',(#167));
#98=EDGE_LOOP('',(#168));
#99=EDGE_LOOP('',(#169));
#100=EDGE_LOOP('',(#170));
#101=EDGE_LOOP('',(#171));
#102=EDGE_LOOP('',(#172));
#103=EDGE_LOOP('',(#173));
#104=EDGE_LOOP('',(#174));
#105=EDGE_LOOP('',(#175));
#106=EDGE_LOOP('',(#176));
#107=CIRCLE('',#202,12.7);
#108=CIRCLE('',#203,12.7);
#109=CIRCLE('',#205,85.);
#110=CIRCLE('',#206,85.);
#111=CIRCLE('',#211,77.5);
#112=CIRCLE('',#212,77.5);
#113=CIRCLE('',#214,79.);
#114=CIRCLE('',#215,79.);
#115=CIRCLE('',#220,13.8);
#116=CIRCLE('',#221,13.8);
#117=CIRCLE('',#223,16.2998125);
#118=CIRCLE('',#225,16.8245);
#119=CIRCLE('',#227,16.8245);
#120=CIRCLE('',#229,16.2998125);
#121=VERTEX_POINT('',#313);
#122=VERTEX_POINT('',#315);
#123=VERTEX_POINT('',#318);
#124=VERTEX_POINT('',#320);
#125=VERTEX_POINT('',#326);
#126=VERTEX_POINT('',#328);
#127=VERTEX_POINT('',#331);
#128=VERTEX_POINT('',#333);
#129=VERTEX_POINT('',#339);
#130=VERTEX_POINT('',#341);
#131=VERTEX_POINT('',#344);
#132=VERTEX_POINT('',#347);
#133=VERTEX_POINT('',#350);
#134=VERTEX_POINT('',#353);
#135=EDGE_CURVE('',#121,#121,#107,.T.);
#136=EDGE_CURVE('',#122,#122,#108,.T.);
#137=EDGE_CURVE('',#123,#123,#109,.T.);
#138=EDGE_CURVE('',#124,#124,#110,.T.);
#139=EDGE_CURVE('',#125,#125,#111,.T.);
#140=EDGE_CURVE('',#126,#126,#112,.T.);
#141=EDGE_CURVE('',#127,#127,#113,.T.);
#142=EDGE_CURVE('',#128,#128,#114,.T.);
#143=EDGE_CURVE('',#129,#129,#115,.T.);
#144=EDGE_CURVE('',#130,#130,#116,.T.);
#145=EDGE_CURVE('',#131,#131,#117,.T.);
#146=EDGE_CURVE('',#132,#132,#118,.T.);
#147=EDGE_CURVE('',#133,#133,#119,.T.);
#148=EDGE_CURVE('',#134,#134,#120,.T.);
#149=ORIENTED_EDGE('',*,*,#135,.F.);
#150=ORIENTED_EDGE('',*,*,#136,.F.);
#151=ORIENTED_EDGE('',*,*,#137,.F.);
#152=ORIENTED_EDGE('',*,*,#138,.F.);
#153=ORIENTED_EDGE('',*,*,#138,.T.);
#154=ORIENTED_EDGE('',*,*,#136,.T.);
#155=ORIENTED_EDGE('',*,*,#137,.T.);
#156=ORIENTED_EDGE('',*,*,#135,.T.);
#157=ORIENTED_EDGE('',*,*,#139,.F.);
#158=ORIENTED_EDGE('',*,*,#140,.F.);
#159=ORIENTED_EDGE('',*,*,#141,.F.);
#160=ORIENTED_EDGE('',*,*,#142,.F.);
#161=ORIENTED_EDGE('',*,*,#142,.T.);
#162=ORIENTED_EDGE('',*,*,#140,.T.);
#163=ORIENTED_EDGE('',*,*,#141,.T.);
#164=ORIENTED_EDGE('',*,*,#139,.T.);
#165=ORIENTED_EDGE('',*,*,#143,.F.);
#166=ORIENTED_EDGE('',*,*,#144,.T.);
#167=ORIENTED_EDGE('',*,*,#145,.F.);
#168=ORIENTED_EDGE('',*,*,#143,.T.);
#169=ORIENTED_EDGE('',*,*,#146,.F.);
#170=ORIENTED_EDGE('',*,*,#145,.T.);
#171=ORIENTED_EDGE('',*,*,#147,.F.);
#172=ORIENTED_EDGE('',*,*,#146,.T.);
#173=ORIENTED_EDGE('',*,*,#148,.F.);
#174=ORIENTED_EDGE('',*,*,#147,.T.);
#175=ORIENTED_EDGE('',*,*,#148,.T.);
#176=ORIENTED_EDGE('',*,*,#144,.F.);
#177=CYLINDRICAL_SURFACE('',#201,12.7);
#178=CYLINDRICAL_SURFACE('',#204,85.);
#179=CYLINDRICAL_SURFACE('',#210,77.5);
#180=CYLINDRICAL_SURFACE('',#213,79.);
#181=CYLINDRICAL_SURFACE('',#219,13.8);
#182=CYLINDRICAL_SURFACE('',#226,16.8245);
#183=ADVANCED_FACE('',(#65,#51),#177,.F.);
#184=ADVANCED_FACE('',(#66,#52),#178,.T.);
#185=ADVANCED_FACE('',(#67,#53),#45,.F.);
#186=ADVANCED_FACE('',(#68,#54),#46,.T.);
#187=ADVANCED_FACE('',(#69,#55),#179,.F.);
#188=ADVANCED_FACE('',(#70,#56),#180,.T.);
#189=ADVANCED_FACE('',(#71,#57),#47,.F.);
#190=ADVANCED_FACE('',(#72,#58),#48,.T.);
#191=ADVANCED_FACE('',(#73,#59),#181,.F.);
#192=ADVANCED_FACE('',(#74,#60),#49,.T.);
#193=ADVANCED_FACE('',(#75,#61),#31,.T.);
#194=ADVANCED_FACE('',(#76,#62),#182,.T.);
#195=ADVANCED_FACE('',(#77,#63),#32,.T.);
#196=ADVANCED_FACE('',(#78,#64),#50,.T.);
#197=CLOSED_SHELL('',(#183,#184,#185,#186));
#198=CLOSED_SHELL('',(#187,#188,#189,#190));
#199=CLOSED_SHELL('',(#191,#192,#193,#194,#195,#196));
#200=AXIS2_PLACEMENT_3D('placement',#311,#237,#238);
#201=AXIS2_PLACEMENT_3D('',#312,#239,#240);
#202=AXIS2_PLACEMENT_3D('',#314,#241,#242);
#203=AXIS2_PLACEMENT_3D('',#316,#243,#244);
#204=AXIS2_PLACEMENT_3D('',#317,#245,#246);
#205=AXIS2_PLACEMENT_3D('',#319,#247,#248);
#206=AXIS2_PLACEMENT_3D('',#321,#249,#250);
#207=AXIS2_PLACEMENT_3D('',#322,#251,#252);
#208=AXIS2_PLACEMENT_3D('',#323,#253,#254);
#209=AXIS2_PLACEMENT_3D('placement',#324,#255,#256);
#210=AXIS2_PLACEMENT_3D('',#325,#257,#258);
#211=AXIS2_PLACEMENT_3D('',#327,#259,#260);
#212=AXIS2_PLACEMENT_3D('',#329,#261,#262);
#213=AXIS2_PLACEMENT_3D('',#330,#263,#264);
#214=AXIS2_PLACEMENT_3D('',#332,#265,#266);
#215=AXIS2_PLACEMENT_3D('',#334,#267,#268);
#216=AXIS2_PLACEMENT_3D('',#335,#269,#270);
#217=AXIS2_PLACEMENT_3D('',#336,#271,#272);
#218=AXIS2_PLACEMENT_3D('placement',#337,#273,#274);
#219=AXIS2_PLACEMENT_3D('',#338,#275,#276);
#220=AXIS2_PLACEMENT_3D('',#340,#277,#278);
#221=AXIS2_PLACEMENT_3D('',#342,#279,#280);
#222=AXIS2_PLACEMENT_3D('',#343,#281,#282);
#223=AXIS2_PLACEMENT_3D('',#345,#283,#284);
#224=AXIS2_PLACEMENT_3D('',#346,#285,#286);
#225=AXIS2_PLACEMENT_3D('',#348,#287,#288);
#226=AXIS2_PLACEMENT_3D('',#349,#289,#290);
#227=AXIS2_PLACEMENT_3D('',#351,#291,#292);
#228=AXIS2_PLACEMENT_3D('',#352,#293,#294);
#229=AXIS2_PLACEMENT_3D('',#354,#295,#296);
#230=AXIS2_PLACEMENT_3D('',#355,#297,#298);
#231=AXIS2_PLACEMENT_3D('placement',#356,#299,#300);
#232=AXIS2_PLACEMENT_3D('',#357,#301,#302);
#233=AXIS2_PLACEMENT_3D('',#358,#303,#304);
#234=AXIS2_PLACEMENT_3D('',#359,#305,#306);
#235=AXIS2_PLACEMENT_3D('',#360,#307,#308);
#236=AXIS2_PLACEMENT_3D('',#361,#309,#310);
#237=DIRECTION('axis',(0.,0.,1.));
#238=DIRECTION('refdir',(1.,0.,0.));
#239=DIRECTION('center_axis',(0.,0.,1.));
#240=DIRECTION('ref_axis',(-1.,0.,0.));
#241=DIRECTION('center_axis',(0.,0.,-1.));
#242=DIRECTION('ref_axis',(-1.,0.,0.));
#243=DIRECTION('center_axis',(0.,0.,1.));
#244=DIRECTION('ref_axis',(-1.,0.,0.));
#245=DIRECTION('center_axis',(0.,0.,1.));
#246=DIRECTION('ref_axis',(-1.,0.,0.));
#247=DIRECTION('center_axis',(0.,0.,1.));
#248=DIRECTION('ref_axis',(-1.,0.,0.));
#249=DIRECTION('center_axis',(0.,0.,-1.));
#250=DIRECTION('ref_axis',(-1.,0.,0.));
#251=DIRECTION('center_axis',(0.,0.,1.));
#252=DIRECTION('ref_axis',(1.,0.,0.));
#253=DIRECTION('center_axis',(0.,0.,1.));
#254=DIRECTION('ref_axis',(1.,0.,0.));
#255=DIRECTION('axis',(0.,0.,1.));
#256=DIRECTION('refdir',(1.,0.,0.));
#257=DIRECTION('center_axis',(0.,0.,1.));
#258=DIRECTION('ref_axis',(-1.,0.,0.));
#259=DIRECTION('center_axis',(0.,0.,-1.));
#260=DIRECTION('ref_axis',(-1.,0.,0.));
#261=DIRECTION('center_axis',(0.,0.,1.));
#262=DIRECTION('ref_axis',(-1.,0.,0.));
#263=DIRECTION('center_axis',(0.,0.,1.));
#264=DIRECTION('ref_axis',(-1.,0.,0.));
#265=DIRECTION('center_axis',(0.,0.,1.));
#266=DIRECTION('ref_axis',(-1.,0.,0.));
#267=DIRECTION('center_axis',(0.,0.,-1.));
#268=DIRECTION('ref_axis',(-1.,0.,0.));
#269=DIRECTION('center_axis',(0.,0.,1.));
#270=DIRECTION('ref_axis',(1.,0.,0.));
#271=DIRECTION('center_axis',(0.,0.,1.));
#272=DIRECTION('ref_axis',(1.,0.,0.));
#273=DIRECTION('axis',(0.,0.,1.));
#274=DIRECTION('refdir',(1.,0.,0.));
#275=DIRECTION('center_axis',(1.,6.12323399573677E-17,0.));
#276=DIRECTION('ref_axis',(0.,1.,0.));
#277=DIRECTION('center_axis',(1.,6.12323399573677E-17,0.));
#278=DIRECTION('ref_axis',(0.,1.,0.));
#279=DIRECTION('center_axis',(1.,6.12323399573677E-17,0.));
#280=DIRECTION('ref_axis',(0.,1.,0.));
#281=DIRECTION('center_axis',(-1.,-6.12323399573677E-17,0.));
#282=DIRECTION('ref_axis',(0.,0.,1.));
#283=DIRECTION('center_axis',(1.,6.12323399573677E-17,0.));
#284=DIRECTION('ref_axis',(0.,1.,0.));
#285=DIRECTION('center_axis',(1.,6.12323399573677E-17,0.));
#286=DIRECTION('ref_axis',(0.,1.,0.));
#287=DIRECTION('center_axis',(1.,6.12323399573677E-17,0.));
#288=DIRECTION('ref_axis',(0.,1.,0.));
#289=DIRECTION('center_axis',(1.,6.12323399573677E-17,0.));
#290=DIRECTION('ref_axis',(0.,1.,0.));
#291=DIRECTION('center_axis',(1.,6.12323399573677E-17,0.));
#292=DIRECTION('ref_axis',(0.,1.,0.));
#293=DIRECTION('center_axis',(-1.,-6.12323399573677E-17,0.));
#294=DIRECTION('ref_axis',(0.,1.,0.));
#295=DIRECTION('center_axis',(1.,6.12323399573677E-17,0.));
#296=DIRECTION('ref_axis',(0.,1.,0.));
#297=DIRECTION('center_axis',(1.,6.12323399573677E-17,0.));
#298=DIRECTION('ref_axis',(0.,0.,-1.));
#299=DIRECTION('axis',(0.,0.,1.));
#300=DIRECTION('refdir',(1.,0.,0.));
#301=DIRECTION('',(0.,0.,1.));
#302=DIRECTION('',(1.,0.,0.));
#303=DIRECTION('',(0.,0.,1.));
#304=DIRECTION('',(1.,0.,0.));
#305=DIRECTION('',(0.,0.,1.));
#306=DIRECTION('',(1.,0.,0.));
#307=DIRECTION('',(1.,0.,0.));
#308=DIRECTION('',(0.,-6.12323399573677E-17,-1.));
#309=DIRECTION('',(1.,0.,0.));
#310=DIRECTION('',(0.,6.12323399573677E-17,1.));
#311=CARTESIAN_POINT('',(0.,0.,0.));
#312=CARTESIAN_POINT('Origin',(0.,0.,0.));
#313=CARTESIAN_POINT('',(12.7,1.55530143491714E-15,3.));
#314=CARTESIAN_POINT('Origin',(0.,0.,3.));
#315=CARTESIAN_POINT('',(12.7,1.55530143491714E-15,0.));
#316=CARTESIAN_POINT('Origin',(0.,0.,0.));
#317=CARTESIAN_POINT('Origin',(0.,0.,0.));
#318=CARTESIAN_POINT('',(85.,1.04094977927525E-14,3.));
#319=CARTESIAN_POINT('Origin',(0.,0.,3.));
#320=CARTESIAN_POINT('',(85.,1.04094977927525E-14,0.));
#321=CARTESIAN_POINT('Origin',(0.,0.,0.));
#322=CARTESIAN_POINT('Origin',(-3.65390025041604E-15,1.39322105051E-15,
0.));
#323=CARTESIAN_POINT('Origin',(-3.65390025041604E-15,1.39322105051E-15,
3.));
#324=CARTESIAN_POINT('',(0.,0.,0.));
#325=CARTESIAN_POINT('Origin',(0.,0.,0.));
#326=CARTESIAN_POINT('',(77.5,-9.49101269339199E-15,750.));
#327=CARTESIAN_POINT('Origin',(0.,0.,750.));
#328=CARTESIAN_POINT('',(77.5,-9.49101269339199E-15,0.));
#329=CARTESIAN_POINT('Origin',(0.,0.,0.));
#330=CARTESIAN_POINT('Origin',(0.,0.,0.));
#331=CARTESIAN_POINT('',(79.,9.67470971326409E-15,750.));
#332=CARTESIAN_POINT('Origin',(0.,0.,750.));
#333=CARTESIAN_POINT('',(79.,9.67470971326409E-15,0.));
#334=CARTESIAN_POINT('Origin',(0.,0.,0.));
#335=CARTESIAN_POINT('Origin',(-3.80429642446019E-15,1.49903530751076E-15,
0.));
#336=CARTESIAN_POINT('Origin',(-3.80429642446019E-15,1.49903530751076E-15,
750.));
#337=CARTESIAN_POINT('',(0.,0.,0.));
#338=CARTESIAN_POINT('Origin',(32.5,1.99005104861445E-15,0.));
#339=CARTESIAN_POINT('',(0.,13.8,0.));
#340=CARTESIAN_POINT('Origin',(0.,-1.97215226305253E-30,0.));
#341=CARTESIAN_POINT('',(65.,13.8,0.));
#342=CARTESIAN_POINT('Origin',(65.,3.9801020972289E-15,0.));
#343=CARTESIAN_POINT('Origin',(-2.77563979259619E-16,15.04990625,0.));
#344=CARTESIAN_POINT('',(-5.55127958519238E-16,16.2998125,0.));
#345=CARTESIAN_POINT('Origin',(0.,-1.97215226305253E-30,0.));
#346=CARTESIAN_POINT('Origin',(8.395,5.140454939421E-16,0.));
#347=CARTESIAN_POINT('',(16.79,16.8245,0.));
#348=CARTESIAN_POINT('Origin',(16.79,1.0280909878842E-15,0.));
#349=CARTESIAN_POINT('Origin',(32.5,1.99005104861445E-15,0.));
#350=CARTESIAN_POINT('',(48.21,16.8245,0.));
#351=CARTESIAN_POINT('Origin',(48.21,2.95201110934469E-15,0.));
#352=CARTESIAN_POINT('Origin',(56.605,3.4660566032868E-15,0.));
#353=CARTESIAN_POINT('',(65.,16.2998125,0.));
#354=CARTESIAN_POINT('Origin',(65.,3.9801020972289E-15,0.));
#355=CARTESIAN_POINT('Origin',(65.,15.04990625,0.));
#356=CARTESIAN_POINT('',(0.,0.,0.));
#357=CARTESIAN_POINT('',(240.117595297559,-51.7250970859409,169.116888327841));
#358=CARTESIAN_POINT('',(240.117595297559,-51.7250970859409,-583.883111672159));
#359=CARTESIAN_POINT('',(240.117595297559,-51.7250970859409,-580.883111672159));
#360=CARTESIAN_POINT('',(240.117595297559,-51.7250970859409,-550.883111672159));
#361=CARTESIAN_POINT('',(240.117595297559,-51.7250970859409,139.116888327841));
#362=UNCERTAINTY_MEASURE_WITH_UNIT(LENGTH_MEASURE(0.01),#372,
'DISTANCE_ACCURACY_VALUE',
'Maximum model space distance between geometric entities at asserted c
onnectivities');
#363=UNCERTAINTY_MEASURE_WITH_UNIT(LENGTH_MEASURE(0.01),#372,
'DISTANCE_ACCURACY_VALUE',
'Maximum model space distance between geometric entities at asserted c
onnectivities');
#364=UNCERTAINTY_MEASURE_WITH_UNIT(LENGTH_MEASURE(0.01),#372,
'DISTANCE_ACCURACY_VALUE',
'Maximum model space distance between geometric entities at asserted c
onnectivities');
#365=UNCERTAINTY_MEASURE_WITH_UNIT(LENGTH_MEASURE(0.01),#372,
'DISTANCE_ACCURACY_VALUE',
'Maximum model space distance between geometric entities at asserted c
onnectivities');
#366=UNCERTAINTY_MEASURE_WITH_UNIT(LENGTH_MEASURE(1.E-6),#372,
'DISTANCE_ACCURACY_VALUE',
'Maximum model space distance between geometric entities at asserted c
onnectivities');
#367=(
GEOMETRIC_REPRESENTATION_CONTEXT(3)
GLOBAL_UNCERTAINTY_ASSIGNED_CONTEXT((#362))
GLOBAL_UNIT_ASSIGNED_CONTEXT((#372,#375,#373))
REPRESENTATION_CONTEXT('','3D')
);
#368=(
GEOMETRIC_REPRESENTATION_CONTEXT(3)
GLOBAL_UNCERTAINTY_ASSIGNED_CONTEXT((#363))
GLOBAL_UNIT_ASSIGNED_CONTEXT((#372,#375,#373))
REPRESENTATION_CONTEXT('','3D')
);
#369=(
GEOMETRIC_REPRESENTATION_CONTEXT(3)
GLOBAL_UNCERTAINTY_ASSIGNED_CONTEXT((#364))
GLOBAL_UNIT_ASSIGNED_CONTEXT((#372,#375,#373))
REPRESENTATION_CONTEXT('','3D')
);
#370=(
GEOMETRIC_REPRESENTATION_CONTEXT(3)
GLOBAL_UNCERTAINTY_ASSIGNED_CONTEXT((#365))
GLOBAL_UNIT_ASSIGNED_CONTEXT((#372,#375,#373))
REPRESENTATION_CONTEXT('','3D')
);
#371=(
GEOMETRIC_REPRESENTATION_CONTEXT(3)
GLOBAL_UNCERTAINTY_ASSIGNED_CONTEXT((#366))
GLOBAL_UNIT_ASSIGNED_CONTEXT((#372,#375,#373))
REPRESENTATION_CONTEXT('','3D')
);
#372=(
LENGTH_UNIT()
NAMED_UNIT(*)
SI_UNIT(.MILLI.,.METRE.)
);
#373=(
NAMED_UNIT(*)
SI_UNIT($,.STERADIAN.)
SOLID_ANGLE_UNIT()
);
#374=DIMENSIONAL_EXPONENTS(0.,0.,0.,0.,0.,0.,0.);
#375=(
CONVERSION_BASED_UNIT('degree',#377)
NAMED_UNIT(#374)
PLANE_ANGLE_UNIT()
);
#376=(
NAMED_UNIT(*)
PLANE_ANGLE_UNIT()
SI_UNIT($,.RADIAN.)
);
#377=PLANE_ANGLE_MEASURE_WITH_UNIT(PLANE_ANGLE_MEASURE(0.01745329252),#376);
#378=SHAPE_DEFINITION_REPRESENTATION(#382,#391);
#379=SHAPE_DEFINITION_REPRESENTATION(#383,#392);
#380=SHAPE_DEFINITION_REPRESENTATION(#384,#393);
#381=SHAPE_DEFINITION_REPRESENTATION(#385,#394);
#382=PRODUCT_DEFINITION_SHAPE('',$,#396);
#383=PRODUCT_DEFINITION_SHAPE('',$,#397);
#384=PRODUCT_DEFINITION_SHAPE('',$,#398);
#385=PRODUCT_DEFINITION_SHAPE('',$,#399);
#386=PRODUCT_DEFINITION_SHAPE($,$,#26);
#387=PRODUCT_DEFINITION_SHAPE($,$,#27);
#388=PRODUCT_DEFINITION_SHAPE($,$,#28);
#389=PRODUCT_DEFINITION_SHAPE($,$,#29);
#390=PRODUCT_DEFINITION_SHAPE($,$,#30);
#391=SHAPE_REPRESENTATION('',(#200),#367);
#392=SHAPE_REPRESENTATION('',(#209),#368);
#393=SHAPE_REPRESENTATION('',(#218),#369);
#394=SHAPE_REPRESENTATION('',(#231,#232,#233,#234,#235,#236),#370);
#395=PRODUCT_DEFINITION_CONTEXT('part definition',#409,'design');
#396=PRODUCT_DEFINITION('Part16','Part16',#400,#395);
#397=PRODUCT_DEFINITION('Part17','Part17',#401,#395);
#398=PRODUCT_DEFINITION('JIS B 2302 Long Nipple 1 x 65',
'JIS B 2302 Long Nipple 1 x 65',#402,#395);
#399=PRODUCT_DEFINITION('Assembly4','Assembly4',#403,#395);
#400=PRODUCT_DEFINITION_FORMATION('',$,#411);
#401=PRODUCT_DEFINITION_FORMATION('',$,#412);
#402=PRODUCT_DEFINITION_FORMATION('',$,#413);
#403=PRODUCT_DEFINITION_FORMATION('',$,#414);
#404=PRODUCT_RELATED_PRODUCT_CATEGORY('Part16','Part16',(#411));
#405=PRODUCT_RELATED_PRODUCT_CATEGORY('Part17','Part17',(#412));
#406=PRODUCT_RELATED_PRODUCT_CATEGORY('JIS B 2302 Long Nipple 1 x 65',
'JIS B 2302 Long Nipple 1 x 65',(#413));
#407=PRODUCT_RELATED_PRODUCT_CATEGORY('Assembly4','Assembly4',(#414));
#408=APPLICATION_PROTOCOL_DEFINITION('international standard',
'automotive_design',2009,#409);
#409=APPLICATION_CONTEXT(
'Core Data for Automotive Mechanical Design Process');
#410=PRODUCT_CONTEXT('part definition',#409,'mechanical');
#411=PRODUCT('Part16','Part16',$,(#410));
#412=PRODUCT('Part17','Part17',$,(#410));
#413=PRODUCT('JIS B 2302 Long Nipple 1 x 65',
'JIS B 2302 Long Nipple 1 x 65',$,(#410));
#414=PRODUCT('Assembly4','Assembly4',$,(#410));
#415=PRESENTATION_STYLE_ASSIGNMENT((#418));
#416=PRESENTATION_STYLE_ASSIGNMENT((#419));
#417=PRESENTATION_STYLE_ASSIGNMENT((#420));
#418=SURFACE_STYLE_USAGE(.BOTH.,#421);
#419=SURFACE_STYLE_USAGE(.BOTH.,#422);
#420=SURFACE_STYLE_USAGE(.BOTH.,#423);
#421=SURFACE_SIDE_STYLE($,(#424));
#422=SURFACE_SIDE_STYLE($,(#425));
#423=SURFACE_SIDE_STYLE($,(#426));
#424=SURFACE_STYLE_FILL_AREA(#427);
#425=SURFACE_STYLE_FILL_AREA(#428);
#426=SURFACE_STYLE_FILL_AREA(#429);
#427=FILL_AREA_STYLE($,(#430));
#428=FILL_AREA_STYLE($,(#431));
#429=FILL_AREA_STYLE($,(#432));
#430=FILL_AREA_STYLE_COLOUR($,#433);
#431=FILL_AREA_STYLE_COLOUR($,#434);
#432=FILL_AREA_STYLE_COLOUR($,#435);
#433=COLOUR_RGB('',0.87843137254902,0.874509803921569,0.858823529411765);
#434=COLOUR_RGB('',0.749019607843137,0.749019607843137,0.749019607843137);
#435=COLOUR_RGB('',0.745098039215686,0.737254901960784,0.729411764705882);
ENDSEC;
END-ISO-10303-21;
