ISO-10303-21;
HEADER;
/* Generated by software containing ST-Developer
 * from STEP Tools, Inc. (www.steptools.com) 
 */

FILE_DESCRIPTION(
/* description */ (''),
/* implementation_level */ '2;1');

FILE_NAME(
/* name */ 'J:\\Michael\\3D tekeningen\\Standaarddempers\\Hd\\HD 01 G.
stp',
/* time_stamp */ '2014-10-13T14:24:53+02:00',
/* author */ ('Tekenkamer'),
/* organization */ (''),
/* preprocessor_version */ 'ST-DEVELOPER v15.6',
/* originating_system */ 'Autodesk Inventor 2015',
/* authorisation */ '');

FILE_SCHEMA (('AUTOMOTIVE_DESIGN { 1 0 10303 214 3 1 1 }'));
ENDSEC;

DATA;
#10=MECHANICAL_DESIGN_GEOMETRIC_PRESENTATION_REPRESENTATION('',(#31,#30,
#29,#32),#430);
#11=ITEM_DEFINED_TRANSFORMATION($,$,#237,#276);
#12=ITEM_DEFINED_TRANSFORMATION($,$,#262,#277);
#13=ITEM_DEFINED_TRANSFORMATION($,$,#262,#278);
#14=(
REPRESENTATION_RELATIONSHIP($,$,#446,#448)
REPRESENTATION_RELATIONSHIP_WITH_TRANSFORMATION(#11)
SHAPE_REPRESENTATION_RELATIONSHIP()
);
#15=(
REPRESENTATION_RELATIONSHIP($,$,#447,#448)
REPRESENTATION_RELATIONSHIP_WITH_TRANSFORMATION(#12)
SHAPE_REPRESENTATION_RELATIONSHIP()
);
#16=(
REPRESENTATION_RELATIONSHIP($,$,#447,#448)
REPRESENTATION_RELATIONSHIP_WITH_TRANSFORMATION(#13)
SHAPE_REPRESENTATION_RELATIONSHIP()
);
#17=CONTEXT_DEPENDENT_SHAPE_REPRESENTATION(#14,#443);
#18=CONTEXT_DEPENDENT_SHAPE_REPRESENTATION(#15,#444);
#19=CONTEXT_DEPENDENT_SHAPE_REPRESENTATION(#16,#445);
#20=NEXT_ASSEMBLY_USAGE_OCCURRENCE('MAAT3D:1','MAAT3D:1','MAAT3D:1',#452,
#450,'MAAT3D:1');
#21=NEXT_ASSEMBLY_USAGE_OCCURRENCE('JIS B 2302 Long Nipple 1 x 150:1',
'JIS B 2302 Long Nipple 1 x 150:1','JIS B 2302 Long Nipple 1 x 150:1',#452,
#451,'JIS B 2302 Long Nipple 1 x 150:1');
#22=NEXT_ASSEMBLY_USAGE_OCCURRENCE('JIS B 2302 Long Nipple 1 x 150:2',
'JIS B 2302 Long Nipple 1 x 150:2','JIS B 2302 Long Nipple 1 x 150:2',#452,
#451,'JIS B 2302 Long Nipple 1 x 150:2');
#23=CONICAL_SURFACE('',#268,16.56215625,1.78991060824607);
#24=CONICAL_SURFACE('',#272,16.56215625,1.78991060824607);
#25=SHAPE_REPRESENTATION_RELATIONSHIP('SRR','None',#446,#27);
#26=SHAPE_REPRESENTATION_RELATIONSHIP('SRR','None',#447,#28);
#27=ADVANCED_BREP_SHAPE_REPRESENTATION($,(#33,#34,#35),#427);
#28=ADVANCED_BREP_SHAPE_REPRESENTATION($,(#36),#428);
#29=STYLED_ITEM('',(#466),#33);
#30=STYLED_ITEM('',(#466),#34);
#31=STYLED_ITEM('',(#466),#35);
#32=STYLED_ITEM('',(#467),#36);
#33=MANIFOLD_SOLID_BREP('EINDSCHOT',#233);
#34=MANIFOLD_SOLID_BREP('EINDSCHOT_1',#234);
#35=MANIFOLD_SOLID_BREP('ROMP',#235);
#36=MANIFOLD_SOLID_BREP('Solid1',#236);
#37=PLANE('',#244);
#38=PLANE('',#245);
#39=PLANE('',#252);
#40=PLANE('',#253);
#41=PLANE('',#260);
#42=PLANE('',#261);
#43=PLANE('',#266);
#44=PLANE('',#274);
#45=FACE_BOUND('',#82,.T.);
#46=FACE_BOUND('',#84,.T.);
#47=FACE_BOUND('',#86,.T.);
#48=FACE_BOUND('',#88,.T.);
#49=FACE_BOUND('',#90,.T.);
#50=FACE_BOUND('',#92,.T.);
#51=FACE_BOUND('',#94,.T.);
#52=FACE_BOUND('',#96,.T.);
#53=FACE_BOUND('',#98,.T.);
#54=FACE_BOUND('',#100,.T.);
#55=FACE_BOUND('',#102,.T.);
#56=FACE_BOUND('',#104,.T.);
#57=FACE_BOUND('',#106,.T.);
#58=FACE_BOUND('',#108,.T.);
#59=FACE_BOUND('',#110,.T.);
#60=FACE_BOUND('',#112,.T.);
#61=FACE_BOUND('',#114,.T.);
#62=FACE_BOUND('',#116,.T.);
#63=FACE_OUTER_BOUND('',#81,.T.);
#64=FACE_OUTER_BOUND('',#83,.T.);
#65=FACE_OUTER_BOUND('',#85,.T.);
#66=FACE_OUTER_BOUND('',#87,.T.);
#67=FACE_OUTER_BOUND('',#89,.T.);
#68=FACE_OUTER_BOUND('',#91,.T.);
#69=FACE_OUTER_BOUND('',#93,.T.);
#70=FACE_OUTER_BOUND('',#95,.T.);
#71=FACE_OUTER_BOUND('',#97,.T.);
#72=FACE_OUTER_BOUND('',#99,.T.);
#73=FACE_OUTER_BOUND('',#101,.T.);
#74=FACE_OUTER_BOUND('',#103,.T.);
#75=FACE_OUTER_BOUND('',#105,.T.);
#76=FACE_OUTER_BOUND('',#107,.T.);
#77=FACE_OUTER_BOUND('',#109,.T.);
#78=FACE_OUTER_BOUND('',#111,.T.);
#79=FACE_OUTER_BOUND('',#113,.T.);
#80=FACE_OUTER_BOUND('',#115,.T.);
#81=EDGE_LOOP('',(#171));
#82=EDGE_LOOP('',(#172));
#83=EDGE_LOOP('',(#173));
#84=EDGE_LOOP('',(#174));
#85=EDGE_LOOP('',(#175));
#86=EDGE_LOOP('',(#176));
#87=EDGE_LOOP('',(#177));
#88=EDGE_LOOP('',(#178));
#89=EDGE_LOOP('',(#179));
#90=EDGE_LOOP('',(#180));
#91=EDGE_LOOP('',(#181));
#92=EDGE_LOOP('',(#182));
#93=EDGE_LOOP('',(#183));
#94=EDGE_LOOP('',(#184));
#95=EDGE_LOOP('',(#185));
#96=EDGE_LOOP('',(#186));
#97=EDGE_LOOP('',(#187));
#98=EDGE_LOOP('',(#188));
#99=EDGE_LOOP('',(#189));
#100=EDGE_LOOP('',(#190));
#101=EDGE_LOOP('',(#191));
#102=EDGE_LOOP('',(#192));
#103=EDGE_LOOP('',(#193));
#104=EDGE_LOOP('',(#194));
#105=EDGE_LOOP('',(#195));
#106=EDGE_LOOP('',(#196));
#107=EDGE_LOOP('',(#197));
#108=EDGE_LOOP('',(#198));
#109=EDGE_LOOP('',(#199));
#110=EDGE_LOOP('',(#200));
#111=EDGE_LOOP('',(#201));
#112=EDGE_LOOP('',(#202));
#113=EDGE_LOOP('',(#203));
#114=EDGE_LOOP('',(#204));
#115=EDGE_LOOP('',(#205));
#116=EDGE_LOOP('',(#206));
#117=CIRCLE('',#239,17.8);
#118=CIRCLE('',#240,17.8);
#119=CIRCLE('',#242,60.);
#120=CIRCLE('',#243,60.);
#121=CIRCLE('',#247,17.8);
#122=CIRCLE('',#248,17.8);
#123=CIRCLE('',#250,60.);
#124=CIRCLE('',#251,60.);
#125=CIRCLE('',#255,52.5);
#126=CIRCLE('',#256,52.5);
#127=CIRCLE('',#258,54.);
#128=CIRCLE('',#259,54.);
#129=CIRCLE('',#264,13.8);
#130=CIRCLE('',#265,13.8);
#131=CIRCLE('',#267,16.2998125);
#132=CIRCLE('',#269,16.8245);
#133=CIRCLE('',#271,16.8245);
#134=CIRCLE('',#273,16.2998125);
#135=VERTEX_POINT('',#365);
#136=VERTEX_POINT('',#367);
#137=VERTEX_POINT('',#370);
#138=VERTEX_POINT('',#372);
#139=VERTEX_POINT('',#377);
#140=VERTEX_POINT('',#379);
#141=VERTEX_POINT('',#382);
#142=VERTEX_POINT('',#384);
#143=VERTEX_POINT('',#389);
#144=VERTEX_POINT('',#391);
#145=VERTEX_POINT('',#394);
#146=VERTEX_POINT('',#396);
#147=VERTEX_POINT('',#402);
#148=VERTEX_POINT('',#404);
#149=VERTEX_POINT('',#407);
#150=VERTEX_POINT('',#410);
#151=VERTEX_POINT('',#413);
#152=VERTEX_POINT('',#416);
#153=EDGE_CURVE('',#135,#135,#117,.T.);
#154=EDGE_CURVE('',#136,#136,#118,.T.);
#155=EDGE_CURVE('',#137,#137,#119,.T.);
#156=EDGE_CURVE('',#138,#138,#120,.T.);
#157=EDGE_CURVE('',#139,#139,#121,.T.);
#158=EDGE_CURVE('',#140,#140,#122,.T.);
#159=EDGE_CURVE('',#141,#141,#123,.T.);
#160=EDGE_CURVE('',#142,#142,#124,.T.);
#161=EDGE_CURVE('',#143,#143,#125,.T.);
#162=EDGE_CURVE('',#144,#144,#126,.T.);
#163=EDGE_CURVE('',#145,#145,#127,.T.);
#164=EDGE_CURVE('',#146,#146,#128,.T.);
#165=EDGE_CURVE('',#147,#147,#129,.T.);
#166=EDGE_CURVE('',#148,#148,#130,.T.);
#167=EDGE_CURVE('',#149,#149,#131,.T.);
#168=EDGE_CURVE('',#150,#150,#132,.T.);
#169=EDGE_CURVE('',#151,#151,#133,.T.);
#170=EDGE_CURVE('',#152,#152,#134,.T.);
#171=ORIENTED_EDGE('',*,*,#153,.F.);
#172=ORIENTED_EDGE('',*,*,#154,.F.);
#173=ORIENTED_EDGE('',*,*,#155,.T.);
#174=ORIENTED_EDGE('',*,*,#156,.F.);
#175=ORIENTED_EDGE('',*,*,#155,.F.);
#176=ORIENTED_EDGE('',*,*,#153,.T.);
#177=ORIENTED_EDGE('',*,*,#156,.T.);
#178=ORIENTED_EDGE('',*,*,#154,.T.);
#179=ORIENTED_EDGE('',*,*,#157,.F.);
#180=ORIENTED_EDGE('',*,*,#158,.F.);
#181=ORIENTED_EDGE('',*,*,#159,.T.);
#182=ORIENTED_EDGE('',*,*,#160,.F.);
#183=ORIENTED_EDGE('',*,*,#159,.F.);
#184=ORIENTED_EDGE('',*,*,#157,.T.);
#185=ORIENTED_EDGE('',*,*,#160,.T.);
#186=ORIENTED_EDGE('',*,*,#158,.T.);
#187=ORIENTED_EDGE('',*,*,#161,.F.);
#188=ORIENTED_EDGE('',*,*,#162,.F.);
#189=ORIENTED_EDGE('',*,*,#163,.T.);
#190=ORIENTED_EDGE('',*,*,#164,.F.);
#191=ORIENTED_EDGE('',*,*,#163,.F.);
#192=ORIENTED_EDGE('',*,*,#161,.T.);
#193=ORIENTED_EDGE('',*,*,#164,.T.);
#194=ORIENTED_EDGE('',*,*,#162,.T.);
#195=ORIENTED_EDGE('',*,*,#165,.F.);
#196=ORIENTED_EDGE('',*,*,#166,.T.);
#197=ORIENTED_EDGE('',*,*,#167,.F.);
#198=ORIENTED_EDGE('',*,*,#165,.T.);
#199=ORIENTED_EDGE('',*,*,#168,.F.);
#200=ORIENTED_EDGE('',*,*,#167,.T.);
#201=ORIENTED_EDGE('',*,*,#169,.F.);
#202=ORIENTED_EDGE('',*,*,#168,.T.);
#203=ORIENTED_EDGE('',*,*,#170,.F.);
#204=ORIENTED_EDGE('',*,*,#169,.T.);
#205=ORIENTED_EDGE('',*,*,#170,.T.);
#206=ORIENTED_EDGE('',*,*,#166,.F.);
#207=CYLINDRICAL_SURFACE('',#238,17.8);
#208=CYLINDRICAL_SURFACE('',#241,60.);
#209=CYLINDRICAL_SURFACE('',#246,17.8);
#210=CYLINDRICAL_SURFACE('',#249,60.);
#211=CYLINDRICAL_SURFACE('',#254,52.5);
#212=CYLINDRICAL_SURFACE('',#257,54.);
#213=CYLINDRICAL_SURFACE('',#263,13.8);
#214=CYLINDRICAL_SURFACE('',#270,16.8245);
#215=ADVANCED_FACE('',(#63,#45),#207,.F.);
#216=ADVANCED_FACE('',(#64,#46),#208,.T.);
#217=ADVANCED_FACE('',(#65,#47),#37,.F.);
#218=ADVANCED_FACE('',(#66,#48),#38,.T.);
#219=ADVANCED_FACE('',(#67,#49),#209,.F.);
#220=ADVANCED_FACE('',(#68,#50),#210,.T.);
#221=ADVANCED_FACE('',(#69,#51),#39,.F.);
#222=ADVANCED_FACE('',(#70,#52),#40,.T.);
#223=ADVANCED_FACE('',(#71,#53),#211,.F.);
#224=ADVANCED_FACE('',(#72,#54),#212,.T.);
#225=ADVANCED_FACE('',(#73,#55),#41,.F.);
#226=ADVANCED_FACE('',(#74,#56),#42,.T.);
#227=ADVANCED_FACE('',(#75,#57),#213,.F.);
#228=ADVANCED_FACE('',(#76,#58),#43,.T.);
#229=ADVANCED_FACE('',(#77,#59),#23,.T.);
#230=ADVANCED_FACE('',(#78,#60),#214,.T.);
#231=ADVANCED_FACE('',(#79,#61),#24,.T.);
#232=ADVANCED_FACE('',(#80,#62),#44,.T.);
#233=CLOSED_SHELL('',(#215,#216,#217,#218));
#234=CLOSED_SHELL('',(#219,#220,#221,#222));
#235=CLOSED_SHELL('',(#223,#224,#225,#226));
#236=CLOSED_SHELL('',(#227,#228,#229,#230,#231,#232));
#237=AXIS2_PLACEMENT_3D('placement',#363,#279,#280);
#238=AXIS2_PLACEMENT_3D('',#364,#281,#282);
#239=AXIS2_PLACEMENT_3D('',#366,#283,#284);
#240=AXIS2_PLACEMENT_3D('',#368,#285,#286);
#241=AXIS2_PLACEMENT_3D('',#369,#287,#288);
#242=AXIS2_PLACEMENT_3D('',#371,#289,#290);
#243=AXIS2_PLACEMENT_3D('',#373,#291,#292);
#244=AXIS2_PLACEMENT_3D('',#374,#293,#294);
#245=AXIS2_PLACEMENT_3D('',#375,#295,#296);
#246=AXIS2_PLACEMENT_3D('',#376,#297,#298);
#247=AXIS2_PLACEMENT_3D('',#378,#299,#300);
#248=AXIS2_PLACEMENT_3D('',#380,#301,#302);
#249=AXIS2_PLACEMENT_3D('',#381,#303,#304);
#250=AXIS2_PLACEMENT_3D('',#383,#305,#306);
#251=AXIS2_PLACEMENT_3D('',#385,#307,#308);
#252=AXIS2_PLACEMENT_3D('',#386,#309,#310);
#253=AXIS2_PLACEMENT_3D('',#387,#311,#312);
#254=AXIS2_PLACEMENT_3D('',#388,#313,#314);
#255=AXIS2_PLACEMENT_3D('',#390,#315,#316);
#256=AXIS2_PLACEMENT_3D('',#392,#317,#318);
#257=AXIS2_PLACEMENT_3D('',#393,#319,#320);
#258=AXIS2_PLACEMENT_3D('',#395,#321,#322);
#259=AXIS2_PLACEMENT_3D('',#397,#323,#324);
#260=AXIS2_PLACEMENT_3D('',#398,#325,#326);
#261=AXIS2_PLACEMENT_3D('',#399,#327,#328);
#262=AXIS2_PLACEMENT_3D('placement',#400,#329,#330);
#263=AXIS2_PLACEMENT_3D('',#401,#331,#332);
#264=AXIS2_PLACEMENT_3D('',#403,#333,#334);
#265=AXIS2_PLACEMENT_3D('',#405,#335,#336);
#266=AXIS2_PLACEMENT_3D('',#406,#337,#338);
#267=AXIS2_PLACEMENT_3D('',#408,#339,#340);
#268=AXIS2_PLACEMENT_3D('',#409,#341,#342);
#269=AXIS2_PLACEMENT_3D('',#411,#343,#344);
#270=AXIS2_PLACEMENT_3D('',#412,#345,#346);
#271=AXIS2_PLACEMENT_3D('',#414,#347,#348);
#272=AXIS2_PLACEMENT_3D('',#415,#349,#350);
#273=AXIS2_PLACEMENT_3D('',#417,#351,#352);
#274=AXIS2_PLACEMENT_3D('',#418,#353,#354);
#275=AXIS2_PLACEMENT_3D('placement',#419,#355,#356);
#276=AXIS2_PLACEMENT_3D('',#420,#357,#358);
#277=AXIS2_PLACEMENT_3D('',#421,#359,#360);
#278=AXIS2_PLACEMENT_3D('',#422,#361,#362);
#279=DIRECTION('axis',(0.,0.,1.));
#280=DIRECTION('refdir',(1.,0.,0.));
#281=DIRECTION('center_axis',(0.,0.,1.));
#282=DIRECTION('ref_axis',(-1.,0.,0.));
#283=DIRECTION('center_axis',(0.,0.,-1.));
#284=DIRECTION('ref_axis',(-1.,0.,0.));
#285=DIRECTION('center_axis',(0.,0.,1.));
#286=DIRECTION('ref_axis',(-1.,0.,0.));
#287=DIRECTION('center_axis',(0.,0.,1.));
#288=DIRECTION('ref_axis',(-1.,0.,0.));
#289=DIRECTION('center_axis',(0.,0.,-1.));
#290=DIRECTION('ref_axis',(-1.,0.,0.));
#291=DIRECTION('center_axis',(0.,0.,-1.));
#292=DIRECTION('ref_axis',(-1.,0.,0.));
#293=DIRECTION('center_axis',(0.,0.,-1.));
#294=DIRECTION('ref_axis',(-1.,0.,0.));
#295=DIRECTION('center_axis',(0.,0.,-1.));
#296=DIRECTION('ref_axis',(-1.,0.,0.));
#297=DIRECTION('center_axis',(0.,0.,1.));
#298=DIRECTION('ref_axis',(-1.,0.,0.));
#299=DIRECTION('center_axis',(0.,0.,-1.));
#300=DIRECTION('ref_axis',(-1.,0.,0.));
#301=DIRECTION('center_axis',(0.,0.,1.));
#302=DIRECTION('ref_axis',(-1.,0.,0.));
#303=DIRECTION('center_axis',(0.,0.,1.));
#304=DIRECTION('ref_axis',(-1.,0.,0.));
#305=DIRECTION('center_axis',(0.,0.,-1.));
#306=DIRECTION('ref_axis',(-1.,0.,0.));
#307=DIRECTION('center_axis',(0.,0.,-1.));
#308=DIRECTION('ref_axis',(-1.,0.,0.));
#309=DIRECTION('center_axis',(0.,0.,-1.));
#310=DIRECTION('ref_axis',(-1.,0.,0.));
#311=DIRECTION('center_axis',(0.,0.,-1.));
#312=DIRECTION('ref_axis',(-1.,0.,0.));
#313=DIRECTION('center_axis',(0.,0.,1.));
#314=DIRECTION('ref_axis',(-1.,0.,0.));
#315=DIRECTION('center_axis',(0.,0.,-1.));
#316=DIRECTION('ref_axis',(-1.,0.,0.));
#317=DIRECTION('center_axis',(0.,0.,1.));
#318=DIRECTION('ref_axis',(-1.,0.,0.));
#319=DIRECTION('center_axis',(0.,0.,1.));
#320=DIRECTION('ref_axis',(-1.,0.,0.));
#321=DIRECTION('center_axis',(0.,0.,-1.));
#322=DIRECTION('ref_axis',(-1.,0.,0.));
#323=DIRECTION('center_axis',(0.,0.,-1.));
#324=DIRECTION('ref_axis',(-1.,0.,0.));
#325=DIRECTION('center_axis',(0.,0.,-1.));
#326=DIRECTION('ref_axis',(-1.,0.,0.));
#327=DIRECTION('center_axis',(0.,0.,-1.));
#328=DIRECTION('ref_axis',(-1.,0.,0.));
#329=DIRECTION('axis',(0.,0.,1.));
#330=DIRECTION('refdir',(1.,0.,0.));
#331=DIRECTION('center_axis',(1.,6.12323399573677E-17,0.));
#332=DIRECTION('ref_axis',(0.,1.,0.));
#333=DIRECTION('center_axis',(1.,6.12323399573677E-17,0.));
#334=DIRECTION('ref_axis',(0.,1.,0.));
#335=DIRECTION('center_axis',(1.,6.12323399573677E-17,0.));
#336=DIRECTION('ref_axis',(0.,1.,0.));
#337=DIRECTION('center_axis',(-1.,-6.12323399573677E-17,0.));
#338=DIRECTION('ref_axis',(0.,0.,1.));
#339=DIRECTION('center_axis',(1.,6.12323399573677E-17,0.));
#340=DIRECTION('ref_axis',(0.,1.,0.));
#341=DIRECTION('center_axis',(1.,6.12323399573677E-17,0.));
#342=DIRECTION('ref_axis',(0.,1.,0.));
#343=DIRECTION('center_axis',(1.,6.12323399573677E-17,0.));
#344=DIRECTION('ref_axis',(0.,1.,0.));
#345=DIRECTION('center_axis',(1.,6.12323399573677E-17,0.));
#346=DIRECTION('ref_axis',(0.,1.,0.));
#347=DIRECTION('center_axis',(1.,6.12323399573677E-17,0.));
#348=DIRECTION('ref_axis',(0.,1.,0.));
#349=DIRECTION('center_axis',(-1.,-6.12323399573677E-17,0.));
#350=DIRECTION('ref_axis',(0.,1.,0.));
#351=DIRECTION('center_axis',(1.,6.12323399573677E-17,0.));
#352=DIRECTION('ref_axis',(0.,1.,0.));
#353=DIRECTION('center_axis',(1.,6.12323399573677E-17,0.));
#354=DIRECTION('ref_axis',(0.,0.,-1.));
#355=DIRECTION('axis',(0.,0.,1.));
#356=DIRECTION('refdir',(1.,0.,0.));
#357=DIRECTION('',(5.63750357432915E-43,8.31948685202181E-23,1.));
#358=DIRECTION('',(1.,-6.7762635780344E-21,0.));
#359=DIRECTION('',(1.,6.77600822155087E-21,2.60208521396521E-18));
#360=DIRECTION('',(-2.60208521396521E-18,6.38344251713328E-17,1.));
#361=DIRECTION('',(1.,6.77600822155087E-21,2.60208521396521E-18));
#362=DIRECTION('',(2.60208521396521E-18,-6.38344251713328E-17,-1.));
#363=CARTESIAN_POINT('',(0.,0.,0.));
#364=CARTESIAN_POINT('Origin',(0.,0.,-3.));
#365=CARTESIAN_POINT('',(17.8,0.,0.));
#366=CARTESIAN_POINT('Origin',(0.,0.,0.));
#367=CARTESIAN_POINT('',(17.8,0.,-3.));
#368=CARTESIAN_POINT('Origin',(0.,0.,-3.));
#369=CARTESIAN_POINT('Origin',(0.,0.,-3.));
#370=CARTESIAN_POINT('',(60.,0.,0.));
#371=CARTESIAN_POINT('Origin',(0.,0.,0.));
#372=CARTESIAN_POINT('',(60.,0.,-3.));
#373=CARTESIAN_POINT('Origin',(0.,0.,-3.));
#374=CARTESIAN_POINT('Origin',(0.,0.,0.));
#375=CARTESIAN_POINT('Origin',(0.,0.,-3.));
#376=CARTESIAN_POINT('Origin',(0.,0.,454.));
#377=CARTESIAN_POINT('',(17.8,0.,457.));
#378=CARTESIAN_POINT('Origin',(0.,0.,457.));
#379=CARTESIAN_POINT('',(17.8,0.,454.));
#380=CARTESIAN_POINT('Origin',(0.,0.,454.));
#381=CARTESIAN_POINT('Origin',(0.,0.,454.));
#382=CARTESIAN_POINT('',(60.,0.,457.));
#383=CARTESIAN_POINT('Origin',(0.,0.,457.));
#384=CARTESIAN_POINT('',(60.,0.,454.));
#385=CARTESIAN_POINT('Origin',(0.,0.,454.));
#386=CARTESIAN_POINT('Origin',(0.,0.,457.));
#387=CARTESIAN_POINT('Origin',(0.,0.,454.));
#388=CARTESIAN_POINT('Origin',(0.,0.,0.));
#389=CARTESIAN_POINT('',(52.5,0.,454.));
#390=CARTESIAN_POINT('Origin',(0.,0.,454.));
#391=CARTESIAN_POINT('',(52.5,0.,0.));
#392=CARTESIAN_POINT('Origin',(0.,0.,0.));
#393=CARTESIAN_POINT('Origin',(0.,0.,0.));
#394=CARTESIAN_POINT('',(54.,0.,454.));
#395=CARTESIAN_POINT('Origin',(0.,0.,454.));
#396=CARTESIAN_POINT('',(54.,0.,0.));
#397=CARTESIAN_POINT('Origin',(0.,0.,0.));
#398=CARTESIAN_POINT('Origin',(0.,0.,454.));
#399=CARTESIAN_POINT('Origin',(0.,0.,0.));
#400=CARTESIAN_POINT('',(0.,0.,0.));
#401=CARTESIAN_POINT('Origin',(75.,4.59242549680257E-15,0.));
#402=CARTESIAN_POINT('',(0.,13.8,0.));
#403=CARTESIAN_POINT('Origin',(0.,-1.97215226305253E-30,0.));
#404=CARTESIAN_POINT('',(150.,13.8,0.));
#405=CARTESIAN_POINT('Origin',(150.,9.18485099360515E-15,0.));
#406=CARTESIAN_POINT('Origin',(-2.77563979259619E-16,15.04990625,0.));
#407=CARTESIAN_POINT('',(-5.55127958519238E-16,16.2998125,0.));
#408=CARTESIAN_POINT('Origin',(0.,-1.97215226305253E-30,0.));
#409=CARTESIAN_POINT('Origin',(8.39500000000001,5.14045493942101E-16,0.));
#410=CARTESIAN_POINT('',(16.79,16.8245,0.));
#411=CARTESIAN_POINT('Origin',(16.79,1.0280909878842E-15,0.));
#412=CARTESIAN_POINT('Origin',(75.,4.59242549680257E-15,0.));
#413=CARTESIAN_POINT('',(133.21,16.8245,0.));
#414=CARTESIAN_POINT('Origin',(133.21,8.15676000572095E-15,0.));
#415=CARTESIAN_POINT('Origin',(141.605,8.67080549966305E-15,0.));
#416=CARTESIAN_POINT('',(150.,16.2998125,0.));
#417=CARTESIAN_POINT('Origin',(150.,9.18485099360515E-15,0.));
#418=CARTESIAN_POINT('Origin',(150.,15.04990625,0.));
#419=CARTESIAN_POINT('',(0.,0.,0.));
#420=CARTESIAN_POINT('',(-39.4036702844582,19.2812239866654,-175.226533435128));
#421=CARTESIAN_POINT('',(-39.4036702844582,19.2812239866654,159.773466564872));
#422=CARTESIAN_POINT('',(-39.4036702844582,19.2812239866654,-56.2265334351276));
#423=UNCERTAINTY_MEASURE_WITH_UNIT(LENGTH_MEASURE(0.01),#431,
'DISTANCE_ACCURACY_VALUE',
'Maximum model space distance between geometric entities at asserted c
onnectivities');
#424=UNCERTAINTY_MEASURE_WITH_UNIT(LENGTH_MEASURE(0.01),#431,
'DISTANCE_ACCURACY_VALUE',
'Maximum model space distance between geometric entities at asserted c
onnectivities');
#425=UNCERTAINTY_MEASURE_WITH_UNIT(LENGTH_MEASURE(0.01),#431,
'DISTANCE_ACCURACY_VALUE',
'Maximum model space distance between geometric entities at asserted c
onnectivities');
#426=UNCERTAINTY_MEASURE_WITH_UNIT(LENGTH_MEASURE(1.E-6),#431,
'DISTANCE_ACCURACY_VALUE',
'Maximum model space distance between geometric entities at asserted c
onnectivities');
#427=(
GEOMETRIC_REPRESENTATION_CONTEXT(3)
GLOBAL_UNCERTAINTY_ASSIGNED_CONTEXT((#423))
GLOBAL_UNIT_ASSIGNED_CONTEXT((#431,#434,#432))
REPRESENTATION_CONTEXT('','3D')
);
#428=(
GEOMETRIC_REPRESENTATION_CONTEXT(3)
GLOBAL_UNCERTAINTY_ASSIGNED_CONTEXT((#424))
GLOBAL_UNIT_ASSIGNED_CONTEXT((#431,#434,#432))
REPRESENTATION_CONTEXT('','3D')
);
#429=(
GEOMETRIC_REPRESENTATION_CONTEXT(3)
GLOBAL_UNCERTAINTY_ASSIGNED_CONTEXT((#425))
GLOBAL_UNIT_ASSIGNED_CONTEXT((#431,#434,#432))
REPRESENTATION_CONTEXT('','3D')
);
#430=(
GEOMETRIC_REPRESENTATION_CONTEXT(3)
GLOBAL_UNCERTAINTY_ASSIGNED_CONTEXT((#426))
GLOBAL_UNIT_ASSIGNED_CONTEXT((#431,#434,#432))
REPRESENTATION_CONTEXT('','3D')
);
#431=(
LENGTH_UNIT()
NAMED_UNIT(*)
SI_UNIT(.MILLI.,.METRE.)
);
#432=(
NAMED_UNIT(*)
SI_UNIT($,.STERADIAN.)
SOLID_ANGLE_UNIT()
);
#433=DIMENSIONAL_EXPONENTS(0.,0.,0.,0.,0.,0.,0.);
#434=(
CONVERSION_BASED_UNIT('degree',#436)
NAMED_UNIT(#433)
PLANE_ANGLE_UNIT()
);
#435=(
NAMED_UNIT(*)
PLANE_ANGLE_UNIT()
SI_UNIT($,.RADIAN.)
);
#436=PLANE_ANGLE_MEASURE_WITH_UNIT(PLANE_ANGLE_MEASURE(0.01745329252),#435);
#437=SHAPE_DEFINITION_REPRESENTATION(#440,#446);
#438=SHAPE_DEFINITION_REPRESENTATION(#441,#447);
#439=SHAPE_DEFINITION_REPRESENTATION(#442,#448);
#440=PRODUCT_DEFINITION_SHAPE('',$,#450);
#441=PRODUCT_DEFINITION_SHAPE('',$,#451);
#442=PRODUCT_DEFINITION_SHAPE('',$,#452);
#443=PRODUCT_DEFINITION_SHAPE($,$,#20);
#444=PRODUCT_DEFINITION_SHAPE($,$,#21);
#445=PRODUCT_DEFINITION_SHAPE($,$,#22);
#446=SHAPE_REPRESENTATION('',(#237),#427);
#447=SHAPE_REPRESENTATION('',(#262),#428);
#448=SHAPE_REPRESENTATION('',(#275,#276,#277,#278),#429);
#449=PRODUCT_DEFINITION_CONTEXT('part definition',#460,'design');
#450=PRODUCT_DEFINITION('MAAT3D','MAAT3D',#453,#449);
#451=PRODUCT_DEFINITION('JIS B 2302 Long Nipple 1 x 150',
'JIS B 2302 Long Nipple 1 x 150',#454,#449);
#452=PRODUCT_DEFINITION('Assembly5','Assembly5',#455,#449);
#453=PRODUCT_DEFINITION_FORMATION('',$,#462);
#454=PRODUCT_DEFINITION_FORMATION('',$,#463);
#455=PRODUCT_DEFINITION_FORMATION('',$,#464);
#456=PRODUCT_RELATED_PRODUCT_CATEGORY('MAAT3D','MAAT3D',(#462));
#457=PRODUCT_RELATED_PRODUCT_CATEGORY('JIS B 2302 Long Nipple 1 x 150',
'JIS B 2302 Long Nipple 1 x 150',(#463));
#458=PRODUCT_RELATED_PRODUCT_CATEGORY('Assembly5','Assembly5',(#464));
#459=APPLICATION_PROTOCOL_DEFINITION('international standard',
'automotive_design',2009,#460);
#460=APPLICATION_CONTEXT(
'Core Data for Automotive Mechanical Design Process');
#461=PRODUCT_CONTEXT('part definition',#460,'mechanical');
#462=PRODUCT('MAAT3D','MAAT3D',$,(#461));
#463=PRODUCT('JIS B 2302 Long Nipple 1 x 150',
'JIS B 2302 Long Nipple 1 x 150',$,(#461));
#464=PRODUCT('Assembly5','Assembly5',$,(#461));
#465=PRESENTATION_STYLE_ASSIGNMENT((#468));
#466=PRESENTATION_STYLE_ASSIGNMENT((#469));
#467=PRESENTATION_STYLE_ASSIGNMENT((#470));
#468=SURFACE_STYLE_USAGE(.BOTH.,#471);
#469=SURFACE_STYLE_USAGE(.BOTH.,#472);
#470=SURFACE_STYLE_USAGE(.BOTH.,#473);
#471=SURFACE_SIDE_STYLE($,(#474));
#472=SURFACE_SIDE_STYLE($,(#475));
#473=SURFACE_SIDE_STYLE($,(#476));
#474=SURFACE_STYLE_FILL_AREA(#477);
#475=SURFACE_STYLE_FILL_AREA(#478);
#476=SURFACE_STYLE_FILL_AREA(#479);
#477=FILL_AREA_STYLE($,(#480));
#478=FILL_AREA_STYLE($,(#481));
#479=FILL_AREA_STYLE($,(#482));
#480=FILL_AREA_STYLE_COLOUR($,#483);
#481=FILL_AREA_STYLE_COLOUR($,#484);
#482=FILL_AREA_STYLE_COLOUR($,#485);
#483=COLOUR_RGB('',0.749019607843137,0.749019607843137,0.749019607843137);
#484=COLOUR_RGB('',1.,1.,1.);
#485=COLOUR_RGB('',0.745098039215686,0.737254901960784,0.729411764705882);
ENDSEC;
END-ISO-10303-21;
